System Of A Down

Pour tous les fans de SOAD
 
AccueilPortailFAQRechercherS'enregistrerMembresGroupesConnexion

Partagez | 
 

 Tablatures guitare

Voir le sujet précédent Voir le sujet suivant Aller en bas 
AuteurMessage
Faffette
Admin


Féminin Nombre de messages : 1633
Age : 23
Localisation : SOADville xD
Date d'inscription : 20/05/2007

MessageSujet: Tablatures guitare   Sam 6 Oct - 14:42

Prison Song:

Tuning C G C F A D

This is not the CD version, it is a demo version i heard before the CD came out

Intro

|---|
|---|
|---|
|---|
|-0-|
|-0-|

|----------------------------------------|
|----------------------------------------|
|----------------------------------------|
|----------------------------------------|
|-0-1-3-1--0-1-3-1--0-1-3-1--0-1-3-3-3-0-|
|-0-1-3-1--0-1-3-1--0-1-3-1--0-1-3-3-3-0-|

|----------------------------------------|
|----------------------------------------|
|----------------------------------------|
|----------------------------------------|
|-0-1-3-1--0-1-3-1--0-1-3-1--0-1-3-3-3-0-|
|-0-1-3-1--0-1-3-1--0-1-3-1--0-1-3-3-3-0-|

|---------------------------|
|---------------------------|
|---------------------------|
|---------------------------|
|-0-1-3-1--0-1-3-1--0-1-3-1-|
|-0-1-3-1--0-1-3-1--0-1-3-1-|

|-----------------------------------------------------------|
|-----------------------------------------------------------|
|-----------------------------------------------------------|
|-------------3---------------------------------------------|
|-0-0-0-1h3-0-1-0-0-0-0-0-1-0--0-0-0-0-0-1-0--0-0-0-0-0-1-0-|
|-0-0-0-1h3-0---0-0-0-0-0-1-0--0-0-0-0-0-1-0--0-0-0-0-0-1-0-|
p.m...... ......... ......... .........

|--------------------------------------------------------------------------|
|--------------------------------------------------------------------------|
|--------------------------------------------------------------------------|
|-------------3------------------------------------------------------------|
|-0-0-0-1h3-0-1-0-0-0-0-0-1-0--0-0-0-0-0-1-0--0-0-0-0-0-1-0--0-0-0-0-0-1-0-|
|-0-0-0-1h3-0---0-0-0-0-0-1-0--0-0-0-0-0-1-0--0-0-0-0-0-1-0--0-0-0-0-0-1-0-|
p.m...... ......... ......... ......... .........

|--------------------------------------|
|--------------------------------------|
|--------------------------------------|
|--------------------------------------|
|-0-1-3-1--0-1-3-1--0-1-3-1--0-1-1-1-1-|
|-0-1-3-1--0-1-3-1--0-1-3-1--0-1-1-1-1-|

|----------------------------------------------------------|
|----------------------------------------------------------|
|----------------------------------------------------------|
|-3--------------------------------------------------------|
|-1-0-0-0-0-0-1-0--0-0-0-0-0-1-0--0-0-0-0-0-1-0--0-0-0-0-0-|
|---0-0-0-0-0-1-0--0-0-0-0-0-1-0--0-0-0-0-0-1-0--0-0-0-0-0-|
p.m...... ......... ......... ...........

Verse

|-------|
|-------|
|---3---|
|-1---1-|
|-------|
|-------|

Chorus

|------------------------------------------------------------|
|------------------------------------------------------------|
|------------------------------------------------------------|
|----------------------------------------------------------3-|
|-0-0-0-0-0-1-0--0-0-0-0-0-1-0--0-0-0-0-0-1-0--0-0-0-1h3-0-1-|
|-0-0-0-0-0-1-0--0-0-0-0-0-1-0--0-0-0-0-0-1-0--0-0-0-1h3-0---|

|------------------------------------------------------------|
|------------------------------------------------------------|
|------------------------------------------------------------|
|------------------------------------------------------------|
|-0-0-0-0-0-1-0--0-0-0-0-0-1-0--0-0-0-0-0-1-0--0-0-0-1-1-1-1-|
|-0-0-0-0-0-1-0--0-0-0-0-0-1-0--0-0-0-0-0-1-0--0-0-0-1-1-1-1-|

Bridge

|----------------------------------------|
|----------------------------------------|
|----------------------------------------|
|----------------------------------------|
|-0-1-3-1--0-1-3-1--0-1-3-1--0-1-3-3-3-0-|
|-0-1-3-1--0-1-3-1--0-1-3-1--0-1-3-3-3-0-|

|------------------------------------------------------------|
|----------------------------------------------------------3-|
|----------------------------------------------------------3-|
|----------------------------------------------------------3-|
|-0-0-0-0-0-1-0--0-0-0-0-0-1-0--0-0-0-0-0-1-0--0-0-0-1h3-0-1-|
|-0-0-0-0-0-1-0--0-0-0-0-0-1-0--0-0-0-0-0-1-0--0-0-0-1h3-0---|

|---------|--------------------------------------|
|-3-------|--------------------------------------|
|---3-----|--------------------------------------|
|-----3---|--------------------------------3-3-3-|
|-------1-|--------------------------------1-1-1-|
|---------|-0-0-0--0-0-0-0--0-0-0-0--0-0-0-------|

|--------------------------------|
|--------------------------------|
|--------------------------------|
|--------------------------3-3-3-|
|-0-0--0-0-0--0-0-0--0-0-0-1-1-1-|
|-0-0--0-0-0--0-0-0--0-0-0-------|
p.m ..... ..... .....

Outro

|----------------------------------------|
|----------------------------------------|
|----------------------------------------|
|----------------------------------------|
|-0-1-3-1--0-1-3-1--0-1-3-1--0-1-3-3-3-0-|
|-0-1-3-1--0-1-3-1--0-1-3-1--0-1-3-3-3-0-|

|------------------------------------------------------------|
|----------------------------------------------------------3-|
|----------------------------------------------------------3-|
|----------------------------------------------------------3-|
|-0-0-0-0-0-1-0--0-0-0-0-0-1-0--0-0-0-0-0-1-0--0-0-0-1h3-0-1-|
|-0-0-0-0-0-1-0--0-0-0-0-0-1-0--0-0-0-0-0-1-0--0-0-0-1h3-0---|

|--------------------------1-|
|---3-----3-----2-----2----3-|
|-----3-----3-----2-----2--2-|
|-------3-----------2------0-|
|-1-----------0--------------|
|----------------------------|



Needles:

Tuning: Double Drop D, Down 1 Step (C,G,C,F,A,C)

INTRO: (not positive on this)
|-6p5p0-6p5p0-6p5p0-6p5p0-6-0-6-0-6-5/6-6-0-6-0-6p5p0-6p5p0-6p0-6p0-6p0|
|----------------------------------------------------------------------|
|----------------------------------------------------------------------|
|----------------------------------------------------------------------|
|----------------------------------------------------------------------|
|----------------------------------------------------------------------|
PM . . . . . . . . .

BRIDGE: (slight variations on this throughout song)
|-------------------------------------------------------------------|
|-------------------------------------------------------------------|
|-------------------------------------------------------------------|
|-0-6-6-6-6-6-6-6-6-6-6-6-6-6-6-6-6---------------------------------|
|-0-6-6-6-6-6-6-6-6-6-6-6-6-6-6-6-6-660-660-660-660-660-660-660-660-|
|-0-6-6-6-6-6-6-6-6-6-6-6-6-6-6-6-6-660-660-660-660-660-660-660-660-|
PM ... ... ... ... ... ... ... ...

|---------------------------------|
|---------------------------------|
|---------------------------------|
|---------------------------------|
|-660-660-660-660-660-660-660-660-|
|-660-660-660-660-660-660-660-660-|
PM... ... ... ... ... ... ... ...

VERSE:
|----------------------------------------|
|----------------------------------------|
|----------------------------------------|
|----------------------------------------|
|-5-6--5-6--5-6--5-6--5-6--5-6--5-6--5-6-|
|-5-6--5-6--5-6--5-6--5-6--5-6--5-6--5-6-|

PRECHORUS:
|-----------------------------------------------------|
|-----------------------------------------------------|
|-----------------------------------------------------|
|-5-13\8-13\8-1-13\8-13\8-6-13\8-6-13\8-6-13\8-6-13\8-|
|-5-13\8-13\8-1-13\8-13\8-6-13\8-6-13\8-6-13\8-6-13\8-|
|-5-13\8-13\8-1-13\8-13\8-6-13\8-6-13\8-6-13\8-6-13\8-|

CHORUS:
|---------------------------------|
|---------------------------------|
|---------------------------------|
|-5-5-5-5-3-3-3-3-6-6-6-6-5-5-5-5-|
|-5-5-5-5-3-3-3-3-6-6-6-6-5-5-5-5-|
|-5-5-5-5-3-3-3-3-6-6-6-6-5-5-5-5-|

CHORUS FILL:
|---------------------------|
|---------------------------|
|---------------------------|
|-5-5-5-5-3-3-3-3-6-6-6-6-5-|
|-5-5-5-5-3-3-3-3-6-6-6-6-5-|
|-5-5-5-5-3-3-3-3-6-6-6-6-5-|

INTERLUDE:
|-------------------------------------------------|
|---4p3---4p3---------------3p2---3p2-------------|
|-------------------------------------------------|
|-5-----5-------5-4---5-4-4-----4-------5-4---5-4-|
|-------------6-----6-----------------5-----5-----|
|-------------------------------------------------|
PM. . . . . . . . . . . . . .

OUTRO: (palm mute)
|---------------------------------|
|---------------------------------|
|---------------------------------|
|---------------------------------|
|-5-5-6-6-8-8-6-6-5-5-3-3-6-6-5-5-|
|-5-5-6-6-8-8-6-6-5-5-3-3-6-6-5-5-|



Deer Dance:

Tuning: Drop D, 1 Step Down (C,G,C,F,A,D)

INTRO: (palm mute)
|------------------------------|
|------------------------------|
|------------------------------|
|------------------------------|
|-110-110-110-1--110-110-110-1-|
|-110-110-110-1--110-110-110-1-|
PM... ... ... ... ... ...

MAIN RIFF:
|--------------------------------------------------------------|
|--------------------------------------------------------------|
|--------------------------------------------------------------|
|-1-0-1-0-1-0-1-0-1-0-1-0-1-0-1-0-1-0-1-0-1-0-1--1-0-1-0-1-0-1-|
|-1-0-1-0-1-0-1-0-1-0-1-0-1-0-1-0-1-0-1-0-1-0-1--1-0-1-0-1-0-1-|
|-1-0-1-0-1-0-1-0-1-0-1-0-1-0-1-0-1-0-1-0-1-0-1--1-0-1-0-1-0-1-|
PM. . . . . . . . . . . . . . . . . . . . . . . . . . . .

VERSE:
|-------------------------|
|-------------------------|
|-------------------------|
|---------------------<5>-|
|-------------------------|
|-5-5/8--3-3/7--1-1/5-----|

VERSE: (slide between palm muted notes)
|--------------------------------------------------------------|
|--------------------------------------------------------------|
|--------------------------------------------------------------|
|----------------------------------------------------------<5>-|
|--------------------------------------------------------------|
|-55558888333377771111555500000000-555588883333777711115555----|
PM................................ ........................

INTERLUDE:
|----------------------|
|-10-9------13-10-9----|
|------9---------------|
|--------12---------12-|
|----------------------|
|----------------------|

INTERLUDE B:
|---------------------------------------------------------------------|
|-----------10-9------13-10-9-/11-11-11-11-11/13-13-13-13-13/15-15-15-|
|-15-14-12-------9----------------------------------------------------|
|------------------12-------------------------------------------------|
|---------------------------------------------------------------------|
|---------------------------------------------------------------------|

|-------------------|
|-16-15-13----------|
|----------14-15-14-|
|-------------------|
|-------------------|
|-------------------|

INTERLUDE FILL :
|-------------|
|-------------|
|-15-14-15-14-|
|-------------|
|-------------|
|-------------|

INTERLUDE C:
|-------------------------|
|-------------------------|
|-15-15-15-14-14-14-14-14-|
|-------------------------|
|-------------------------|
|-------------------------|

OUTRO:
|-------------------------------|
|-------------------------------|
|-------------------------------|
|-1-0-1-0-1-0-1-0-1-0-1-0-1-0-1-|
|-1-0-1-0-1-0-1-0-1-0-1-0-1-0-1-|
|-1-0-1-0-1-0-1-0-1-0-1-0-1-0-1-|
PM. . . . . . . . . . . . . .

_________________
Serj Daron John Shavo
4 Dieux Vivants sur Terre...Une Musique Extraordinaire...Et des millions de Fans...
Voilà ce que c'est LE meilleur groupe du monde...
System Of A Down
Revenir en haut Aller en bas
Voir le profil de l'utilisateur http://system-of-a-down.bestgoo.com
Faffette
Admin


Féminin Nombre de messages : 1633
Age : 23
Localisation : SOADville xD
Date d'inscription : 20/05/2007

MessageSujet: Re: Tablatures guitare   Sam 6 Oct - 14:47

Jet Pilot:


Part 1 x3
Tuning: Drop C (CGCFAD) Part 2

Part 1 (* = Palm Muted) Part 3A x8
D|-----------------------------------------| Part 3B X6
A|-9----9----9----9----9----9----9-----9-9-| Part 3C
F|-7----7----7----7----7----7----7-----7-7-|
C|-0000-0000-0000-0000-0000-0000-0000-0000-| Part 1 x2
G|-0000-0000-0000-0000-0000-0000-0000-0000-| Part 2
C|-0000-0000-0000-0000-0000-0000-0000-0000-|
*** *** *** *** *** *** *** * * Part 3A x8
Part 3B x6
Part 2 Part 3C
D|-----------------------|
A|-----------------------| Part 1 x4
F|-----------------------| Part 2 x4
C|---3-2-1-0-1-0h1p0-----| Part 4
G|-0-----------------3-1-|
C|-----------------------| Part 1 x3

Part 3A Part 3B Part 3C
D|--------------|-----------------|---|
A|--------------|-----------------|---|
F|--------------|-----------------|---|
C|-7-8-7-8-7--5-|-7-8-7-8-7-5-5-5-|-7-|
G|-7-8-7-8-7--5-|-7-8-7-8-7-5-5-5-|-7-|
C|-7-8-7-8-7--5-|-7-8-7-8-7-5-5-5-|-7-|


Part 4
D|---------------------------------------------------|
A|---------------------------------------------------|
F|---------------------------------------------------|
C|---3-5-7-8-7-10-8-12-10-14-12-14-12-10-8-12-10-8-7-|
G|-0-------------------------------------------------|
C|---------------------------------------------------|
<----Palm Muted---->


X

INTRO: (palm mute, gradually release)
|---------------------------------|
|---------------------------------|
|-5-7-8-7-5-7-8-7-5-7-8-7-5-7-8-7-|
|---------------------------------|
|---------------------------------|
|---------------------------------|

MAIN RIFF:
|------------------------------------------------|
|------------------------------------------------|
|----------------8/10-10-------------------------|
|-0--0--0-0--0-0-9/11-11--0-0--0--0-0--0-0-5/8-8-|
|-0--0--0-0--0-0----------0-0--0--0-0--0-0-3/6-6-|
|-0--0--0-0--0-0----------0-0--0--0-0--0-0-------|

VERSE: (palm mute during first half of verse, release second)
|---------------------------------|
|---------------------------------|
|---------------------------------|
|---------------------------------|
|-3-5-6-5-3-5-6-5-3-5-6-5-3-5-6-5-|
|---------------------------------|

INTERLUDE:
|-----------------------------------------------|
|-----------------------15^---15^-----------15^-|
|-----------------------------------------------|
|----------0--0--0-0--0-----0-----0--0-0--0-----|
|-3-5-6-5--0--0--0-0--0-----0-----0--0-0--0-----|
|----------0--0--0-0--0-----0-----0--0-0--0-----|
PM. . . . . . . . . . . . . .



Chop Suey!

Vous pouvez jouer cette chanson en DROP D ou DROP C. C'est vous qui voyez. Si vous choisissez de jouer en C
"JUST TRANPOSE 1 STEP UP". SOAD joue en CGCFAD .Les deux reviennent au même.
E--------------------------------------------------------------
B--------------------------------------------------------------
G-----3--/---5-----2-----0-------------------------------------
D-----5--/---7-----3-----1--------(acoustic)------------------X1
A---- 0-/----0-----0-----0-------------------------------------
D--------------------------------------------------------------
You can figure out the way to strum it.


This is distorted now. Some of this is palm muted.
E----------------------------------------------------------------------------------------
B----------------------------------------------------------------------------------------
G----3-----3-----3-----------5----5---5--------2----2---2-------0------0----0--------
D-------5-----5-----5----------7--- 7--- 7--------3---3---3---------1-----1-----1--
A---------------------------------------------------------------------------------------
D----------------------------------------------------------------------------X1-----------


E---------------------------------------------------------------------------------------
B---------------------------------------------------------------------------------------
G---3 x11-----5 x11----2-x11----0--x11--------------x2---------------------------
D-------------------------------------------------------------------------
A---------------------------------------------------------------------------------------
D---------------------------------------------------------------------------------------


E-----------HEAVY PART--------play fast-------------------X2----------------------------
B-------------------------------------------------------------------------------------------
G-------------------------------------------------------------------------------------------
D--6-5-6-5-6-5-6-5--5-4-5-4-5-4-5-4--8-7-8-7-8-7-8-7--10-9-10-9-10-9-10-9--
A--6-5-6-5-6-5-6-5--5-4-5-4-5-4-5-4--8-7-8-7-8-7-8-7--10-9-10-9-10-9-10-9-
D--6-5-6-5-6-5-6-5--5-4-5-4-5-4-5-4--8-7-8-7-8-7-8-7--10-9-10-9-10-9-10-9--

E---------------------------------------------------------------------------------
B---------------------------------------------------------------------------------
G--------------------------------------------------------------------x2-------------
D---------------------------------------------------------------------------------
A-------------------------00000000-33333333----------------------
D---55555555-44444444----------------------------------------------------

E----------------------------verse------------------------------------------------------
B------------------------------------------keep repeating-----------------------------------
G----------------------------------------------------------------------------------
D-----6-5----6-5-6-5-6-5-6-5-6-4--4-5-4-5-4-5-4-5-4-5-----------------------------
A-----6-5----6-5-6-5-6-5-6-5-6 4--4-5-4-5-4-5-4-5-4-5---------------------------
D-----6-5----6-5-6-5-6-5-6-5-6-4--4-5-4-5-4-5-4-5-4-5---------------------------
“wake up!” play the wake up part only once.

E--------------------------------------------------------------------------------------
B--------------------------------------------------------------------------------------
G--3----3----------------5-----5------------2-----2-------------0------0------------------
D-----5----5------5---------7----7------7------3-----3------3------1----- 1--------1-----
A---------------0---------------------0-------------------0------------------- ---0--------
D----------------------------------------------------------------------------------------
X2

E------------------------------X2----------------------------------------------------------
B-------------------------------------------------------------------------------------------
G-------------------------------------------------------------------------------------------
D--6-5-6-5-6-5-6-5--5-4-5-4-5-4-5-4--8-7-8-7-8-7-8-7--10-9-10-9-10-9-10-9--
A--6-5-6-5-6-5-6-5--5-4-5-4-5-4-5-4--8-7-8-7-8-7-8-7--10-9-10-9-10-9-10-9-
D--6-5-6-5-6-5-6-5--5-4-5-4-5-4-5-4--8-7-8-7-8-7-8-7--10-9-10-9-10-9-10-9--



E----------------------------verse------------------------------------------------------
B------------------------------------------keep repeating-----------------------------------
G----------------------------------------------------------------------------------
D-----6-5----6-5-6-5-6-5-6-5-6-4--4-5-4-5-4-5-4-5-4-5-----------------------------
A-----6-5----6-5-6-5-6-5-6-5-6 4--4-5-4-5-4-5-4-5-4-5---------------------------
D-----6-5----6-5-6-5-6-5-6-5-6-4--4-5-4-5-4-5-4-5-4-5---------------------------
“wake up!” play the wake up part only once.

“I dont think you trust..........”

E--------------------------------------------------------X whatever--------------------------
B--------------------------------------------------------------------------------------
G--3----3----------------5-----5------------2-----2------------0-------0-------------
D-----5----5------5---------7----7------7------3-----3------3-------1------1------1-----
A---------------0---------------------0-------------------0----------------------0--------
D----------------------------------------------------------------------------------------

“When angels deserve to die.........”

E------------------------------X2----------------------------------------------------------
B-------------------------------------------------------------------------------------------
G-------------------------------------------------------------------------------------------
D--6-5-6-5-6-5-6-5--5-4-5-4-5-4-5-4--8-7-8-7-8-7-8-7--10-9-10-9-10-9-10-9--
A--6-5-6-5-6-5-6-5--5-4-5-4-5-4-5-4--8-7-8-7-8-7-8-7--10-9-10-9-10-9-10-9-
D--6-5-6-5-6-5-6-5--5-4-5-4-5-4-5-4--8-7-8-7-8-7-8-7--10-9-10-9-10-9-10-9--

E------------------------------X2----------------------------------------------------------
B-------------------------------------------------------------------------------------------
G-------------------------------------------------------------------------------------------
D--6-5-6-5-6-5-6-5--5-4-5-4-5-4-5-4--8-7-8-7-8-7-8-7--10-9-10-9-10-9-10-9--
A--6-5-6-5-6-5-6-5--5-4-5-4-5-4-5-4--8-7-8-7-8-7-8-7--10-9-10-9-10-9-10-9-
D--6-5-6-5-6-5-6-5--5-4-5-4-5-4-5-4--8-7-8-7-8-7-8-7--10-9-10-9-10-9-10-9--
PALM MUTED THIS TIME!!!!!! "father!(father!)"

E-----"fall into your hands, i commend my spirits"----------------------------
B---------------------------------------------------------------------------------
G--------------------------------------------------------------------x2-------------
D---------------------------------------------------------------------------------
A-------------------------00000000-33333333----------------------
D---55555555-44444444----------------------------------------------------
“why have you forsaken me?”
E------------------------------------------------------------------------------
B------------------------------------------------------------------------------
G---------------8-------------------------8-----------------------------------
D---5--(ring)---8--(ring)----8------------8--(ring)----------------------------------------
A---5-----------6------------8--(ring)----6---------------------------------------------
D---5------------------------8-------------------------------------------------


BOUNCE!

Tuning: Drop D, 1 Step Down (C,G,C,F,A,D)

CHORUS:
|-----------------|
|-----------------|
|-----------------|
|-8-7788778877880-|
|-8-7788778877880-|
|-8-7788778877880-|
PM ............

VERSE: (palm mute)
|----------------------------------------|
|----------------------------------------|
|----------------------------------------|
|----------------------------------------|
|-13-12-13--13-12-13--13-12-13--13-12-13-|
|----------------------------------------|

|----------------------------------------|
|----------------------------------------|
|----------------------------------------|
|----------------------------------------|
|-12-11-12--12-11-12--12-11-12--12-11-12-|
|----------------------------------------|

VERSE 2:
|-----------------------------------------------------|
|-----------------------------------------------------|
|-----10-----10-----10-----10-----9-----9-----9-----9-|
|---12-----12-----12-----12-----11----11----11----11--|
|-12-----12-----12-----12-----11----11----11----11----|
|-----------------------------------------------------|
PM.... .... .... .... .... .... .... ....

INTERLUDE:
|-------------------------------------|
|-------------------------------------|
|---10---10---10---10---9---9---9---9-|
|-8----8----8----8----7---7---7---7---|
|-------------------------------------|
|-------------------------------------|

INTERLUDE 2:
|----------------------------|
|----------------------------|
|----------------------------|
|-8-8-0--8-8-0--8-8-0--8-8-0-|
|-8-8-0--8-8-0--8-8-0--8-8-0-|
|-8-8-0--8-8-0--8-8-0--8-8-0-|

INTERLUDE 3:
|-----------------------------------------------------|
|-----------------------------------------------------|
|-----10-----10-----10-----10-----9-----9-----9-----9-|
|------8------8------8------8-----7-----7-----7-----7-|
|-0-0----0-0----0-0----0-0----0-0---0-0---0-0---0-0---|
|-0-0----0-0----0-0----0-0----0-0---0-0---0-0---0-0---|
PM. . . . . . . . . . . . . . . .

INTERLUDE 4: (palm mute)
|------------------------------------------------------------|
|------------------------------------------------------------|
|------------------------------------------------------------|
|------------------------------------------------------------|
|------------------------------------------------------------|
|-8-8-0--8-8-0--8-8-0--8-8-0--8-7-12--8-7-12--8-7-12--8-7-12-|
Revenir en haut Aller en bas
Voir le profil de l'utilisateur http://system-of-a-down.bestgoo.com
Faffette
Admin


Féminin Nombre de messages : 1633
Age : 23
Localisation : SOADville xD
Date d'inscription : 20/05/2007

MessageSujet: Re: Tablatures guitare   Sam 6 Oct - 14:56

Forest:

Tuning: Drop D, 1 Step Down (C,G,C,F,A,D)

INTRO:
|------------------------------------------------------------------|
|------------------------------------------------------------------|
|------------------------------------------------------------------|
|-0-00000000000000-1-111-111-111-112-22222222222223-333-3333333333-|
|------------------------------------------------------------------|
|------------------------------------------------------------------|PM. .............. . ... ... ... ... .............. ... ..........

|-----------------------------------------------------------------|
|-------------------------------------------------6-6-6-6-6-6-6-6-|
|-----------------------------------------------------------------|
|-0-000-0000000000-1-111-11111111112-222-2222222223-3-3-3-3-3-3-3-|
|-----------------------------------------------------------------|
|-----------------------------------------------------------------|
PM. ... .......... . ... ........... ... .........

BRIDGE: (play once then again w/ palm mute)
|-------------------------------------------------|
|-------------------------------------------------|
|-------------------------------------------------|
|-0-064-0-064-0-064-0-064-0-046-0-046-0-046-0-046-|
|-0-064-0-064-0-064-0-064-0-046-0-046-0-046-0-046-|
|-0-064-0-064-0-064-0-064-0-046-0-046-0-046-0-046-|

VERSE: (palm mute chords during verse 2)
|----------------------------------------------------------|
|----------------------------------------------------------|
|---------77777777--------88888888-------------------------|
|-----4444------------5555---------0-064-0-064-0-064-0-064-|
|-5555------------6666-------------0-064-0-064-0-064-0-064-|
|----------------------------------0-064-0-064-0-064-0-064-|

|----------------------------------------------------------|
|----------------------------------------------------------|
|---------88888888--------99999999-------------------------|
|-----5555------------6666---------0-046-0-046-0-046-0-046-|
|-6666------------7777-------------0-046-0-046-0-046-0-046-|
|----------------------------------0-046-0-046-0-046-0-046-|

VERSE B: (no ones or zeros, elevens and tens)
|----------------------------------------------------------|
|----------------------------------------------------------|
|---------88888888--------99999999--------1010101010101010-|
|-----5555------------6666------------7777-----------------|
|-6666------------7777------------8888---------------------|
|----------------------------------------------------------|

|--------------------------|
|--------------------------|
|---------1111111111111111-|
|-----8888-----------------|
|-9999---------------------|
|--------------------------|

VERSE C:
|-------------------------------------------------|
|-------------------------------------------------|
|-----7-------7-------8-------8-------9-------9---|
|---4---4---4---4---5---5---5---5---6---6---6---6-|
|-5-------5-------6-------6-------7-------7-------|
|-------------------------------------------------|

CHORUS:
|------------------------------|
|------------------------------|
|------------------------------|
|--------------0-0---1-1---5-5-|
|-8-10-8-7-5-4-0-0---1-1---5-5-|
|-8-10-8-7-5-4-0-0---1-1---5-5-|

CHORUS END 1:
|--------------|
|--------------|
|--------------|
|--------------|
|-8-10-8-7-5-4-|
|-8-10-8-7-5-4-|

CHORUS END 2:
|---------------------------------------|
|---------------------------------------|
|---------------------------------------|
|---------------------------------------|
|-8-8-8-8-7-5--8-8-8-8-7-5--8-8-8-8-7-5-|
|-8-8-8-8-7-5--8-8-8-8-7-5--8-8-8-8-7-5-|

INTERLUDE: (palm mute)
|-------------------------------------|
|-------------------------------------|
|-------------------------------------|
|-------------------------------------|
|-00-0-6-4-00-0-6-4-00-0-6-4-00-0-6-4-|
|-00-0-6-4-00-0-6-4-00-0-6-4-00-0-6-4-|

INTERLUDE 2: (palm mute)
|-------------------------------------|
|-------------------------------------|
|-------------------------------------|
|-------------------------------------|
|-00-0-4-6-00-0-4-6-00-0-4-6-00-0-4-6-|
|-00-0-4-6-00-0-4-6-00-0-4-6-00-0-4-6-|


INTERLUDE 3:
|--------------------------|
|--------------------------|
|--------------------------|
|--------------8-8-8-8-7---|
|-8-8-8-8-7-5--6-6-6-6-5-8-|
|-8-8-8-8-7-5------------8-|

INTERLUDE 4:
|-------------------------------------------|
|-------------------------------------------|
|-------------------------------------------|
|--------------8-8-8-8-7----10-10-10-10-8-7-|
|-8-8-8-8-7-5--6-6-6-6-5-8---8--8--8--8-6-5-|
|-8-8-8-8-7-5------------8------------------|

INTERLUDE 5:
|----------------------------------------------------------------------|
|----------------------------------------------------------------------|
|----------------------------------------------------------------------|
|-10-10-10-10-8-7-12-12-12-12-10-8-13-13-13-13-12-10-15-15-15-15-13-12-|
|--8--8--8--8-6-5-10-10-10-10--8-6-11-11-11-11-10--8-13-13-13-13-11-10-|
|----------------------------------------------------------------------|

INTERLUDE 6: (palm mute)
|--------------|
|--------------|
|--------------|
|-00-0-0000-00-|
|-00-0-0000-00-|
|-00-0-0000-00-|

VERSE D: (palm mute)
|-------------------------------------------------------------------|
|-------------------------------------------------------------------|
|-----7-------7-------8-------8-------9-------9-------10-------10---|
|---4---4---4---4---5---5---5---5---6---6---6---6---7----7---7----7-|
|-5-------5-------6-------6-------7-------7-------8--------8--------|
|-------------------------------------------------------------------|

CHORUS 2:
|--------------------------------------------------------|
|--------------------------------------------------------|
|--------------------------------------------------------|
|--------------00-00-0000-00-11-11-1111-11-55-55-5555-55-|
|-8-10-8-7-5-4-00-00-0000-00-11-11-1111-11-55-55-5555-55-|
|-8-10-8-7-5-4-00-00-0000-00-11-11-1111-11-55-55-5555-55-|
PM .. .. .... .. .. .. .... .. .. .. .... ..

OUTRO:
|----------------|
|----------------|
|----------------|
|--------------0-|
|-8-10-8-7-5-4-0-|
|-8-10-8-7-5-4-0-|


ATWA

Tuning: CGCFAD

Intro/Verse 1
|-------------------------------------|
|-------------------------------------|
|-------------------------------------|
|---8---7---10---12---13---12---10---8| x4
|-------------------------------------|
|-------------------------------------|

Chorus 1
|----------------------|
|----------------------|
|----------------------|
|--5555555---5555555---| x4
|--5555555---5555555---|
|--5555555---5555555---|
PM ………………… …………………

Verse 2
|-------------------------------------------------|
|-------------------------------------------------|
|-------------------------------------------------|
|---8-----7-----10----12----13-----12----10----8--| x3
|-------------------------------------------------|
|-5---5/3----3\7---7/8—--8/10--10\8---8\7---8\5--5|

Chorus
|----------------------| |-------------|
|----------------------| |-------------|
|----------------------| then |-------------|
|--5555555---5555555---| x4 |--5-5-5-5h6--| x4
|--5555555---5555555---| |--5-5-5-5h6--|
|--5555555---5555555---| |--5-5-5-5h6--|
PM ………………… …………………

Fill
|------------------------------------------------------|
|-8--8---6--6—--10-10---11-11---13--13---11-11---10-10-|
|------------------------------------------------------|
|-5--5---3--3----7--7----8--8---10--10----8--8----7--7-| x1
|------------------------------------------------------|
|------------------------------------------------------|

Outro
|-------------------------------------------|
|-------------------------------------------|
|-------------------------------------------|
|---5----3----7----8----10----8----7----5---| x2
|---5----3----7----8----10----8----7----5---|
|---5----3----7----8----10----8----7----5---|

|----------------------| |-------------|
|----------------------| |-------------|
|----------------------| then |-------------|
|--5555555---5555555---| x4 |--5-5-5-5h6--| x4
|--5555555---5555555---| |--5-5-5-5h6--|
|--5555555---5555555---| |--5-5-5-5h6--|

Science

Tuning: Drop D, 1 Step Down (C,G,C,F,A,D)

< > - harmonics

INTRO: (this part can be played several diff. ways, this is just the
easiest way for me to play it...you can switch the harmonic to the 5th
fret on the 4th string and you can also switch the 5th fret on the 5th
string to an open fret on the 4th string...just mix and match and find
the way you like best)
|-----------------------------------------------------------------|
|-----------------------------------------------------------------|
|-<7>-----------------------------<7>-----------------------------|
|-----------------------------------------------------------------|
|-----5-5-555-5-5-555-5-5-555-5-5-----5-5-555-5-5-555-5-5-555-5-5-|
|-----------------------------------------------------------------|
PM . . ... . . ... . . ... . . . . ... . . ... . . ... . .

|-----------------------------------------------------------------|
|-----------------------------------------------------------------|
|-<7>-------------<7>-------------<7>-----<7>-----<7>-----<7>-----|
|-----------------------------------------------------------------|
|-----5-5-555-5-5-----5-5-555-5-5-----5-5-----5-5-----5-5-----5-5-|
|-----------------------------------------------------------------|
. . ... . . . . ... . . . . . . . . . .

CHORUS:
|---------------------------------------------------------|
|---------------------------------------------------------|
|-7-------------7-------------7---------------------------|
|-7-------------7-------------7---------------------5-----|
|-5-0-0-0-0-0-0-5-0-0-0-0-0-0-5-0-0-0-0-0-0---5-6-8---8-6-|
|---0-0-0-0-0-0---0-0-0-0-0-0---0-0-0-0-0-0-8-------------|
PM . . . . . . . . . . . . . . . . . .

VERSE:
|-------------------------------------------------------------|
|-------------------------------------------------------------|
|-------------------------------------------------------------|
|-------------------------------------------------------------|
|-6-5-5-555-5-5-555-5-5-555-5-5-6-5-5-555-5-5-555-5-5-555-5-5-|
|-------------------------------------------------------------|
PM . . ... . . ... . . ... . . . . ... . . ... . . ... . .

|-----------------------------------------------------|
|-----------------------------------------------------|
|-----------------------------------------------------|
|-----------------------------------------------------|
|-6-5-5-555-5-5-6-5-5-555-5-5-6-5-5-6-5-5-6-5-5-6-5-5-|
|-----------------------------------------------------|
. . ... . . . . ... . . . . . . . . . .

VERSE 2:
|-------------------------------------------------------------|
|-------------------------------------------------------------|
|-------------------------------------------------------------|
|-------------------------------------------------------------|
|-6-5-5-555-5-5-555-5-5-555-5-5-6-5-5-555-5-5-555-5-5-555-5-5-|
|-------------------------------------------------------------|
PM . . ... . . ... . . ... . . . . ... . . ... . . ... . .

|-----------------------------------------------------------------|
|-----------------------------------------------------------------|
|-<7>-------------<7>-------------<7>-----<7>-----<7>-----<7>-----|
|-----------------------------------------------------------------|
|-----5-5-555-5-5-----5-5-555-5-5-----5-5-----5-5-----5-5-----5-5-|
|-----------------------------------------------------------------|
. . ... . . . . ... . . . . . . . . . .

BRIDGE:
|------------------------|
|------------------------|
|------------------------|
|-0--2--3----------5-----|
|-0--2--3----5-6-8---8-6-|
|-0--2--3--8-------------|

INTERLUDE: (palm mute)
|---------------------------|
|---------------------------|
|-------------------5-------|
|---5-7---7-8---7-8---8-7-8-|
|-5-----5-----5-------------|
|---------------------------|

FILL:
|----------------------|
|----------------------|
|-----0----------------|
|-3-3---3-2--2-2h3-2---|
|--------------------3-|
|----------------------|

INTERLUDE 2:
|--------------------------------------------------------------------|
|--------------------------------------------------------------------|
|-0-2-3-0-2-2-22--0-2-5-3-2-2-22--0-2-3-0-2-2-22-----0---------------|
|-------------------------------------------------33---3-2-2-2h3-2---|
|------------------------------------------------------------------3-|
|--------------------------------------------------------------------|

INTERLUDE FILL:
|-------------------------------|
|-------------------------------|
|-0-2-3-0-2-2-23-0-2-2-23-0-2-2-|
|-------------------------------|
|-------------------------------|
|-------------------------------|

OUTRO:
|----------------------------------------------------------|
|----------------------------------------------------------|
|-7-------------9-------------10---------------------------|
|-7-------------9-------------10---------------------5-----|
|-5-555-555-555-7-777-777-777--8-888-888-888---5-6-8---8-6-|
|--------------------------------------------8-------------|
PM ... ... ... ... ... ... ... ... ...

_________________
Serj Daron John Shavo
4 Dieux Vivants sur Terre...Une Musique Extraordinaire...Et des millions de Fans...
Voilà ce que c'est LE meilleur groupe du monde...
System Of A Down
Revenir en haut Aller en bas
Voir le profil de l'utilisateur http://system-of-a-down.bestgoo.com
Ellana Caldin
Modérateur


Féminin Nombre de messages : 1131
Age : 22
Date d'inscription : 15/08/2007

MessageSujet: Re: Tablatures guitare   Sam 6 Oct - 17:30

Ouaaaa c'est super merci beaucoup xD
Le jour ou je prendrais des cours de guitard je pourrais m'en servir... parce que là ça m'inspire pas trop Laughing
Merci Faffa !!

_________________
Revenir en haut Aller en bas
Voir le profil de l'utilisateur
Faffette
Admin


Féminin Nombre de messages : 1633
Age : 23
Localisation : SOADville xD
Date d'inscription : 20/05/2007

MessageSujet: Re: Tablatures guitare   Sam 6 Oct - 20:36

Oui je capte rien non plus, mon frère fait de la guitare mais il a déjà les tablatures et il sait les refaire à l'oreilles...mais je crois que les chiffres c'est le nombre de la case non? ouhla je sais pas^^

_________________
Serj Daron John Shavo
4 Dieux Vivants sur Terre...Une Musique Extraordinaire...Et des millions de Fans...
Voilà ce que c'est LE meilleur groupe du monde...
System Of A Down
Revenir en haut Aller en bas
Voir le profil de l'utilisateur http://system-of-a-down.bestgoo.com
Ellana Caldin
Modérateur


Féminin Nombre de messages : 1131
Age : 22
Date d'inscription : 15/08/2007

MessageSujet: Re: Tablatures guitare   Dim 7 Oct - 12:29

Oui peut-être ca doit être quelques choses du style Very Happy lol

_________________
Revenir en haut Aller en bas
Voir le profil de l'utilisateur
Contenu sponsorisé




MessageSujet: Re: Tablatures guitare   Aujourd'hui à 23:25

Revenir en haut Aller en bas
 
Tablatures guitare
Voir le sujet précédent Voir le sujet suivant Revenir en haut 
Page 1 sur 1
 Sujets similaires
-
» Je cherche la tablature de : Steel Guitar Rag
» Oh ma jolie sarah - Johnny
» Avant la guitare : luth, théorbe, archiluth, guitare baroque
» Editeur de tablatures et d'accords en ligne
» Recueil tablatures Son House

Permission de ce forum:Vous ne pouvez pas répondre aux sujets dans ce forum
System Of A Down :: Les Albums :: Toxicity-
Sauter vers: